Friday, October 24, 2008

Way Back into Love by Hugh Grant

Intro:
Gtr.2
E| 13--15--17--18--17--15--10--13--13--13--15--17--18--15--10--15--15--|
B|---------------------------------------------------------------------|
G|---------------------------------------------------------------------|
D|---------------------------------------------------------------------|
A|---------------------------------------------------------------------|
E|---------------------------------------------------------------------|

E|--15--15--15--13--11--10--8--15--15--15--15--13--11--10-10--11--10--8--|
B|-----------------------------------------------------------------------|
G|-----------------------------------------------------------------------|
D|-----------------------------------------------------------------------|
A|-----------------------------------------------------------------------|
E|-----------------------------------------------------------------------|

1st verse
Gtr.1
Bb Gm
I've been living with a shadow overhead
Bb Gm
I've been sleeping with a cloud above my bed
Cm Bb F
I've been lonely for so long
Cm Bb F
Trapped in the past, I just can't seem to move on

2nd verse
Gtr.1
Bb Gm
I've been hiding all my hopes and dreams away
Bb Gm
Just in case I ever need em again someday
Cm Bb F
I've been setting aside time
Cm Bb F
To clear a little space in the corners of my mind


Chorus
Gtr.1
Bb Gm Eb Bb
All I want to do is find a way back into love
Bb Gm Eb Bb
I can't make it through without a way back into love
F Eb F
Oh oh oh


3rd verse
Gtr.1
Bb Gm
I've been watching but the stars refuse to shine
Bb Gm
I've been searching but I just don't see the signs
Cm Bb F
I know that it's out there
Cm Bb F
There's got to be something for my soul somewhere

4th verse
Gtr.1
Bb Gm
I've been looking for someone to shed some light
Bb Gm
Not just somebody just to get me through the night
Cm Bb F
I could use some direction
Cm Bb F
And I'm open to your suggestions


Chorus
Gtr.1
Bb Gm Eb Bb
All I want to do is find a way back into love
Bb Gm Eb Bb
I can't make it through without a way back into love
Cm
And if I open my heart again
Cm F
I guess I'm hoping you'll be there for me in the end

Instrumental
Gtr.1
Bb-Gm-Eb-Bb

Gtr.2
E|------6-----6-----8-----6-----6------|
B|----6-----6-----6-----6-----6---6----|
G|--7-----7-----7-----7-----7----------|
D|-------------------------------------|
A|-------------------------------------|
E|-------------------------------------|

E|------6-----6-----8-----6-----6------|
B|----6-----6-----6-----6-----6---6----|
G|--7-----7-----7-----7-----7----------|
D|-------------------------------------|
A|-------------------------------------|
E|-------------------------------------|

E|----10------11------10-----10------|
B|-------8-------8---------8----8----|
G|--8-------8-------8----8-----------|
D|-----------------------------------|
A|-----------------------------------|
E|-----------------------------------|

E|----10------11------10-----10------|
B|-------8-------8---------8----8----|
G|--8-------8-------8----8-----------|
D|-----------------------------------|
A|-----------------------------------|
E|-----------------------------------|

Verse 5
Gtr.1
Bb Gm
There are moments when I don't know if it's real
Bb Gm
Or if anybody feels the way I feel
Cm Bb F
I need inspiration
Cm Bb F
Not just another negotiation

Chorus
Gtr.1
Bb Gm Eb Bb
All I want to do is find a way back into love
Bb Gm Eb Bb
I can't make it through without a way back into love
Cm
And if I open my heart to you
Gm
I'm hoping you'll show me what to do
Cm
And if you help me to start again
F
You know that I'll be there for you in the end

Instrumental
Gtr.1
Bb-Gm-Eb-Bb

Gtr.2
E|------6-----6-----8-----6-----6------|
B|----6-----6-----6-----6-----6---6----|
G|--7-----7-----7-----7-----7----------|
D|-------------------------------------|
A|-------------------------------------|
E|-------------------------------------|

E|------6-----6-----8-----6-----6------|
B|----6-----6-----6-----6-----6---6----|
G|--7-----7-----7-----7-----7----------|
D|-------------------------------------|
A|-------------------------------------|
E|-------------------------------------|

E|----10------11------10-----10------|
B|-------8-------8---------8----8----|
G|--8-------8-------8----8-----------|
D|-----------------------------------|
A|-----------------------------------|
E|-----------------------------------|

E|----10------11------10-----10------|
B|-------8-------8---------8----8----|
G|--8-------8-------8----8-----------|
D|-----------------------------------|
A|-----------------------------------|
E|-----------------------------------|

E|------6-----6-----8-----6-----6------|
B|----6-----6-----6-----6-----6---6----|
G|--7-----7-----7-----7-----7----------|
D|-------------------------------------|
A|-------------------------------------|
E|-------------------------------------|

E|------6-----6-----8-----6-----6------|
B|----6-----6-----6-----6-----6---6----|
G|--7-----7-----7-----7-----7----------|
D|-------------------------------------|
A|-------------------------------------|
E|-------------------------------------|

E|----10------11------10-----10------|
B|-------8-------8---------8----8----|
G|--8-------8-------8----8-----------|
D|-----------------------------------|
A|-----------------------------------|
E|-----------------------------------|

E|----10------11------10-----10------|
B|-------8-------8---------8----8----|
G|--8-------8-------8----8-----------|
D|-----------------------------------|
A|-----------------------------------|
E|-----------------------------------|

then...
E|--13--15--17--18--17--15--10--13--13---|
B|---------------------------------------|
G|---------------------------------------| 2x
D|---------------------------------------|
A|---------------------------------------|
E|---------------------------------------|

-------------------------------------------------------------------------------------

I'm learning "way back into Love" just now.

I like the lyric and melody very much!

Actually, I've downloaded this song a long time already and just keep it aside.

Suddenly, hear my housemate listening this song. Cool, it's so nice!!

I quickly run to his room and ask him sent me the song he listen just now.

I just realized this is a song from a movie....

don't know the movie title yet, but feel like it's a very nice and romantic movie.

Must figure it out!


4 comments:

rowan said...

Hahah is this the from the movie Music & Lyrics? I haven't seen that show yet :p

david said...

me haven't too, but i hear e quan said his classmate got the movie...waiting to receive from skype.
must watch it!! horray~~

Kimberly said...

haha..i watched the movie already like 2 years ago...

david said...

waw, kim, u remember wat's the movie title??